ISO-10303-21;
HEADER;
FILE_DESCRIPTION (( 'STEP AP203' ),
    '1' );
FILE_NAME ('End Cap SDR11_001 117 0140 0160.step',
    '2019-12-16T11:41:10',
    ( '' ),
    ( '' ),
    'SwSTEP 2.0',
    'SolidWorks 2019',
    '' );
FILE_SCHEMA (( 'CONFIG_CONTROL_DESIGN' ));
ENDSEC;

DATA;
#1 = CARTESIAN_POINT ( 'NONE',  ( 0.0000000000000000000, 0.0000000000000000000, 0.0000000000000000000 ) ) ;
#2 = ORIENTED_EDGE ( 'NONE', *, *, #253, .T. ) ;
#3 = DIRECTION ( 'NONE',  ( -0.0000000000000000000, -1.000000000000000000, -0.0000000000000000000 ) ) ;
#4 =( GEOMETRIC_REPRESENTATION_CONTEXT ( 3 ) GLOBAL_UNCERTAINTY_ASSIGNED_CONTEXT ( ( #7 ) ) GLOBAL_UNIT_ASSIGNED_CONTEXT ( ( #187, #159, #133 ) ) REPRESENTATION_CONTEXT ( 'NONE', 'WORKASPACE' ) );
#5 = EDGE_CURVE ( 'NONE', #91, #236, #185, .T. ) ;
#6 = ORIENTED_EDGE ( 'NONE', *, *, #74, .T. ) ;
#7 = UNCERTAINTY_MEASURE_WITH_UNIT (LENGTH_MEASURE( 1.000000000000000082E-05 ), #187, 'distance_accuracy_value', 'NONE');
#8 = COORDINATED_UNIVERSAL_TIME_OFFSET ( 3, 0, .AHEAD. ) ;
#9 = AXIS2_PLACEMENT_3D ( 'NONE', #163, #247, #28 ) ;
#10 = PERSON_AND_ORGANIZATION ( #20, #283 ) ;
#11 = VERTEX_POINT ( 'NONE', #258 ) ;
#12 = CALENDAR_DATE ( 2019, 16, 12 ) ;
#13 = ORIENTED_EDGE ( 'NONE', *, *, #281, .T. ) ;
#14 = EDGE_LOOP ( 'NONE', ( #87, #195 ) ) ;
#15 = LOCAL_TIME ( 14, 41, 10.00000000000000000, #55 ) ;
#16 = EDGE_LOOP ( 'NONE', ( #229, #111, #213, #295 ) ) ;
#17 = CC_DESIGN_PERSON_AND_ORGANIZATION_ASSIGNMENT ( #294, #84, ( #306 ) ) ;
#18 = FACE_OUTER_BOUND ( 'NONE', #117, .T. ) ;
#19 = EDGE_CURVE ( 'NONE', #276, #196, #180, .T. ) ;
#20 = PERSON ( 'BELÝRTÝLMEMÝÞ', 'BELÝRTÝLMEMÝÞ', 'BELÝRTÝLMEMÝÞ', ('BELÝRTÝLMEMÝÞ'), ('BELÝRTÝLMEMÝÞ'), ('BELÝRTÝLMEMÝÞ') ) ;
#21 = CARTESIAN_POINT ( 'NONE',  ( 0.0000000000000000000, 0.0000000000000000000, -65.40000000000001990 ) ) ;
#22 = CARTESIAN_POINT ( 'NONE',  ( 0.0000000000000000000, -116.9414152353410117, 2.465438884915568174 ) ) ;
#23 = DIRECTION ( 'NONE',  ( -0.0000000000000000000, -1.000000000000000000, -0.0000000000000000000 ) ) ;
#24 = CARTESIAN_POINT ( 'NONE',  ( -3.019291838905270471E-16, -116.9414152353410117, -2.465438884915568174 ) ) ;
#25 = DIRECTION ( 'NONE',  ( 0.0000000000000000000, 0.0000000000000000000, -1.000000000000000000 ) ) ;
#26 = DIRECTION ( 'NONE',  ( 0.0000000000000000000, 0.0000000000000000000, -1.000000000000000000 ) ) ;
#27 = ADVANCED_FACE ( 'NONE', ( #18 ), #118, .F. ) ;
#28 = DIRECTION ( 'NONE',  ( 1.000000000000000000, 0.0000000000000000000, 0.0000000000000000000 ) ) ;
#29 = APPROVAL_DATE_TIME ( #248, #35 ) ;
#30 = APPROVAL_DATE_TIME ( #249, #197 ) ;
#31 = ORIENTED_EDGE ( 'NONE', *, *, #262, .T. ) ;
#32 = APPROVAL_STATUS ( 'not_yet_approved' ) ;
#33 = ORIENTED_EDGE ( 'NONE', *, *, #52, .T. ) ;
#34 = ORIENTED_EDGE ( 'NONE', *, *, #281, .F. ) ;
#35 = APPROVAL ( #191, 'BELÝRTÝLMEMÝÞ' ) ;
#36 = VERTEX_POINT ( 'NONE', #199 ) ;
#37 = APPROVAL_PERSON_ORGANIZATION ( #251, #224, #141 ) ;
#38 = CARTESIAN_POINT ( 'NONE',  ( 0.0000000000000000000, 0.0000000000000000000, 0.0000000000000000000 ) ) ;
#39 = EDGE_CURVE ( 'NONE', #166, #36, #168, .T. ) ;
#40 = CARTESIAN_POINT ( 'NONE',  ( 0.0000000000000000000, 0.0000000000000000000, -79.99999999999998579 ) ) ;
#41 = DIRECTION ( 'NONE',  ( 0.0000000000000000000, 0.0000000000000000000, -1.000000000000000000 ) ) ;
#42 = AXIS2_PLACEMENT_3D ( 'NONE', #106, #207, #288 ) ;
#43 = TOROIDAL_SURFACE ( 'NONE', #42, -2.465438884915568174, 225.4008202700547088 ) ;
#44 = CARTESIAN_POINT ( 'NONE',  ( 0.0000000000000000000, 0.0000000000000000000, 0.0000000000000000000 ) ) ;
#45 = EDGE_CURVE ( 'NONE', #91, #276, #259, .T. ) ;
#46 = MANIFOLD_SOLID_BREP ( 'Döndür1', #189 ) ;
#47 = DIRECTION ( 'NONE',  ( 0.0000000000000000000, 0.0000000000000000000, -1.000000000000000000 ) ) ;
#48 = AXIS2_PLACEMENT_3D ( 'NONE', #158, #245, #26 ) ;
#49 = CIRCLE ( 'NONE', #48, 65.40000000000001990 ) ;
#50 = CARTESIAN_POINT ( 'NONE',  ( 0.0000000000000000000, 0.0000000000000000000, -79.99999999999998579 ) ) ;
#51 = CARTESIAN_POINT ( 'NONE',  ( 0.0000000000000000000, 0.0000000000000000000, -65.40000000000000568 ) ) ;
#52 = EDGE_CURVE ( 'NONE', #36, #298, #238, .T. ) ;
#53 = AXIS2_PLACEMENT_3D ( 'NONE', #78, #186, #267 ) ;
#54 = LOCAL_TIME ( 14, 41, 10.00000000000000000, #8 ) ;
#55 = COORDINATED_UNIVERSAL_TIME_OFFSET ( 3, 0, .AHEAD. ) ;
#56 = COORDINATED_UNIVERSAL_TIME_OFFSET ( 3, 0, .AHEAD. ) ;
#57 = ORIENTED_EDGE ( 'NONE', *, *, #39, .F. ) ;
#58 = VECTOR ( 'NONE', #3, 1000.000000000000000 ) ;
#59 = DATE_AND_TIME ( #273, #190 ) ;
#60 = AXIS2_PLACEMENT_3D ( 'NONE', #157, #244, #25 ) ;
#61 = ORIENTED_EDGE ( 'NONE', *, *, #52, .F. ) ;
#62 = ORIENTED_EDGE ( 'NONE', *, *, #255, .F. ) ;
#63 = EDGE_CURVE ( 'NONE', #236, #196, #220, .T. ) ;
#64 = ORIENTED_EDGE ( 'NONE', *, *, #302, .T. ) ;
#65 = DIRECTION ( 'NONE',  ( -0.0000000000000000000, -1.000000000000000000, -0.0000000000000000000 ) ) ;
#66 = DIRECTION ( 'NONE',  ( -1.000000000000000000, 0.0000000000000000000, 0.0000000000000000000 ) ) ;
#67 = DIRECTION ( 'NONE',  ( 0.0000000000000000000, 0.0000000000000000000, -1.000000000000000000 ) ) ;
#68 = CARTESIAN_POINT ( 'NONE',  ( -7.727477043432469909E-15, 108.4459211203608078, 0.0000000000000000000 ) ) ;
#69 = CIRCLE ( 'NONE', #60, 80.00000000000000000 ) ;
#70 = AXIS2_PLACEMENT_3D ( 'NONE', #75, #184, #266 ) ;
#71 = DIRECTION ( 'NONE',  ( -0.0000000000000000000, -1.000000000000000000, -0.0000000000000000000 ) ) ;
#72 = CC_DESIGN_PERSON_AND_ORGANIZATION_ASSIGNMENT ( #10, #110, ( #235 ) ) ;
#73 = CYLINDRICAL_SURFACE ( 'NONE', #86, 65.40000000000001990 ) ;
#74 = EDGE_CURVE ( 'NONE', #11, #36, #144, .T. ) ;
#75 = CARTESIAN_POINT ( 'NONE',  ( -3.019291838905270471E-16, -116.9414152353410117, -2.465438884915568174 ) ) ;
#76 = CIRCLE ( 'NONE', #70, 240.0000000000000568 ) ;
#77 = AXIS2_PLACEMENT_3D ( 'NONE', #1, #101, #205 ) ;
#78 = CARTESIAN_POINT ( 'NONE',  ( 65.40000000000000568, 0.0000000000000000000, 0.0000000000000000000 ) ) ;
#79 = CIRCLE ( 'NONE', #77, 65.40000000000000568 ) ;
#80 = AXIS2_PLACEMENT_3D ( 'NONE', #24, #129, #225 ) ;
#81 = PERSON_AND_ORGANIZATION ( #20, #283 ) ;
#82 = CC_DESIGN_APPROVAL ( #224, ( #306 ) ) ;
#83 = PERSON_AND_ORGANIZATION ( #20, #283 ) ;
#84 = PERSON_AND_ORGANIZATION_ROLE ( 'classification_officer' ) ;
#85 = ORIENTED_EDGE ( 'NONE', *, *, #74, .F. ) ;
#86 = AXIS2_PLACEMENT_3D ( 'NONE', #183, #265, #47 ) ;
#87 = ORIENTED_EDGE ( 'NONE', *, *, #19, .T. ) ;
#88 = CIRCLE ( 'NONE', #80, 225.4008202700547088 ) ;
#89 = EDGE_CURVE ( 'NONE', #196, #276, #137, .T. ) ;
#90 = EDGE_LOOP ( 'NONE', ( #232, #13, #113, #215 ) ) ;
#91 = VERTEX_POINT ( 'NONE', #149 ) ;
#92 = DIRECTION ( 'NONE',  ( 0.0000000000000000000, 0.0000000000000000000, -1.000000000000000000 ) ) ;
#93 = AXIS2_PLACEMENT_3D ( 'NONE', #100, #204, #285 ) ;
#94 = DIRECTION ( 'NONE',  ( -0.0000000000000000000, -1.000000000000000000, -0.0000000000000000000 ) ) ;
#95 = DIRECTION ( 'NONE',  ( 0.0000000000000000000, 0.0000000000000000000, -1.000000000000000000 ) ) ;
#96 = FACE_OUTER_BOUND ( 'NONE', #90, .T. ) ;
#97 = TOROIDAL_SURFACE ( 'NONE', #93, -2.465438884915568174, 240.0000000000000568 ) ;
#98 = PRODUCT_DEFINITION ( 'BÝLÝNMEYEN', '', #235, #128 ) ;
#99 = APPROVAL_PERSON_ORGANIZATION ( #83, #197, #272 ) ;
#100 = CARTESIAN_POINT ( 'NONE',  ( 0.0000000000000000000, -116.9414152353410117, 0.0000000000000000000 ) ) ;
#101 = DIRECTION ( 'NONE',  ( -0.0000000000000000000, -1.000000000000000000, -0.0000000000000000000 ) ) ;
#102 = FACE_OUTER_BOUND ( 'NONE', #14, .T. ) ;
#103 = AXIS2_PLACEMENT_3D ( 'NONE', #242, #23, #125 ) ;
#104 = AXIS2_PLACEMENT_3D ( 'NONE', #284, #71, #182 ) ;
#105 = TOROIDAL_SURFACE ( 'NONE', #103, -2.465438884915568174, 225.4008202700547088 ) ;
#106 = CARTESIAN_POINT ( 'NONE',  ( 0.0000000000000000000, -116.9414152353410117, 0.0000000000000000000 ) ) ;
#107 = PERSON_AND_ORGANIZATION ( #20, #283 ) ;
#108 = AXIS2_PLACEMENT_3D ( 'NONE', #22, #124, #222 ) ;
#109 = CALENDAR_DATE ( 2019, 16, 12 ) ;
#110 = PERSON_AND_ORGANIZATION_ROLE ( 'design_supplier' ) ;
#111 = ORIENTED_EDGE ( 'NONE', *, *, #63, .T. ) ;
#112 = DATE_AND_TIME ( #12, #223 ) ;
#113 = ORIENTED_EDGE ( 'NONE', *, *, #45, .T. ) ;
#114 = AXIS2_PLACEMENT_3D ( 'NONE', #44, #153, #240 ) ;
#115 = EDGE_LOOP ( 'NONE', ( #275, #62 ) ) ;
#116 = CIRCLE ( 'NONE', #108, 240.0000000000000568 ) ;
#117 = EDGE_LOOP ( 'NONE', ( #85, #194, #274, #61 ) ) ;
#118 = CYLINDRICAL_SURFACE ( 'NONE', #167, 65.40000000000001990 ) ;
#119 = DIRECTION ( 'NONE',  ( -0.0000000000000000000, -1.000000000000000000, -0.0000000000000000000 ) ) ;
#120 = AXIS2_PLACEMENT_3D ( 'NONE', #122, #201, #280 ) ;
#121 = CIRCLE ( 'NONE', #120, 65.40000000000000568 ) ;
#122 = CARTESIAN_POINT ( 'NONE',  ( 0.0000000000000000000, 0.0000000000000000000, 0.0000000000000000000 ) ) ;
#123 = ADVANCED_FACE ( 'NONE', ( #239 ), #127, .T. ) ;
#124 = DIRECTION ( 'NONE',  ( -1.000000000000000000, 0.0000000000000000000, 0.0000000000000000000 ) ) ;
#125 = DIRECTION ( 'NONE',  ( 0.0000000000000000000, 0.0000000000000000000, -1.000000000000000000 ) ) ;
#126 = AXIS2_PLACEMENT_3D ( 'NONE', #221, #303, #95 ) ;
#127 = TOROIDAL_SURFACE ( 'NONE', #126, -2.465438884915568174, 240.0000000000000568 ) ;
#128 = DESIGN_CONTEXT ( 'detailed design', #263, 'design' ) ;
#129 = DIRECTION ( 'NONE',  ( 1.000000000000000000, 0.0000000000000000000, -1.224646799147353207E-16 ) ) ;
#130 = LINE ( 'NONE', #226, #58 ) ;
#131 = FACE_OUTER_BOUND ( 'NONE', #145, .T. ) ;
#132 = AXIS2_PLACEMENT_3D ( 'NONE', #178, #260, #41 ) ;
#133 =( NAMED_UNIT ( * ) SI_UNIT ( $, .STERADIAN. ) SOLID_ANGLE_UNIT ( ) );
#134 = MECHANICAL_CONTEXT ( 'NONE', #246, 'mechanical' ) ;
#135 = CC_DESIGN_PERSON_AND_ORGANIZATION_ASSIGNMENT ( #139, #228, ( #235 ) ) ;
#136 = PERSON_AND_ORGANIZATION ( #20, #283 ) ;
#137 = CIRCLE ( 'NONE', #132, 79.99999999999998579 ) ;
#138 = AXIS2_PLACEMENT_3D ( 'NONE', #200, #279, #67 ) ;
#139 = PERSON_AND_ORGANIZATION ( #20, #283 ) ;
#140 = ORIENTED_EDGE ( 'NONE', *, *, #5, .F. ) ;
#141 = APPROVAL_ROLE ( '' ) ;
#142 = ORIENTED_EDGE ( 'NONE', *, *, #152, .T. ) ;
#143 = ORIENTED_EDGE ( 'NONE', *, *, #253, .F. ) ;
#144 = CIRCLE ( 'NONE', #138, 65.40000000000001990 ) ;
#145 = EDGE_LOOP ( 'NONE', ( #143, #173, #64 ) ) ;
#146 = CC_DESIGN_APPROVAL ( #197, ( #235 ) ) ;
#147 = DIRECTION ( 'NONE',  ( -0.0000000000000000000, -1.000000000000000000, -0.0000000000000000000 ) ) ;
#148 = DIRECTION ( 'NONE',  ( -0.0000000000000000000, -1.000000000000000000, -0.0000000000000000000 ) ) ;
#149 = CARTESIAN_POINT ( 'NONE',  ( 0.0000000000000000000, 108.4459211203608078, -80.00000000000000000 ) ) ;
#150 = VECTOR ( 'NONE', #94, 1000.000000000000000 ) ;
#151 = VECTOR ( 'NONE', #119, 1000.000000000000000 ) ;
#152 = EDGE_CURVE ( 'NONE', #298, #234, #121, .T. ) ;
#153 = DIRECTION ( 'NONE',  ( -0.0000000000000000000, -1.000000000000000000, -0.0000000000000000000 ) ) ;
#154 = FACE_OUTER_BOUND ( 'NONE', #218, .T. ) ;
#155 = CARTESIAN_POINT ( 'NONE',  ( 8.009190066423689102E-15, 0.0000000000000000000, 65.40000000000000568 ) ) ;
#156 = VECTOR ( 'NONE', #148, 1000.000000000000000 ) ;
#157 = CARTESIAN_POINT ( 'NONE',  ( 0.0000000000000000000, 108.4459211203608078, 0.0000000000000000000 ) ) ;
#158 = CARTESIAN_POINT ( 'NONE',  ( 0.0000000000000000000, 98.00000000000000000, 0.0000000000000000000 ) ) ;
#159 =( NAMED_UNIT ( * ) PLANE_ANGLE_UNIT ( ) SI_UNIT ( $, .RADIAN. ) );
#160 = AXIS2_PLACEMENT_3D ( 'NONE', #278, #66, #177 ) ;
#161 = APPROVAL_PERSON_ORGANIZATION ( #81, #35, #270 ) ;
#162 = CC_DESIGN_PERSON_AND_ORGANIZATION_ASSIGNMENT ( #107, #210, ( #293 ) ) ;
#163 = CARTESIAN_POINT ( 'NONE',  ( 0.0000000000000000000, 0.0000000000000000000, 0.0000000000000000000 ) ) ;
#164 = CALENDAR_DATE ( 2019, 16, 12 ) ;
#165 = CALENDAR_DATE ( 2019, 16, 12 ) ;
#166 = VERTEX_POINT ( 'NONE', #68 ) ;
#167 = AXIS2_PLACEMENT_3D ( 'NONE', #219, #300, #92 ) ;
#168 = CIRCLE ( 'NONE', #160, 225.4008202700547088 ) ;
#169 = DATE_TIME_ROLE ( 'classification_date' ) ;
#170 = ORIENTED_EDGE ( 'NONE', *, *, #282, .F. ) ;
#171 = EDGE_LOOP ( 'NONE', ( #170, #252, #33, #142 ) ) ;
#172 = ADVANCED_FACE ( 'NONE', ( #179 ), #261, .T. ) ;
#173 = ORIENTED_EDGE ( 'NONE', *, *, #39, .T. ) ;
#174 = PRODUCT_RELATED_PRODUCT_CATEGORY ( 'detail', '', ( #293 ) ) ;
#175 = AXIS2_PLACEMENT_3D ( 'NONE', #38, #147, #237 ) ;
#176 = DIRECTION ( 'NONE',  ( 0.0000000000000000000, 0.0000000000000000000, -1.000000000000000000 ) ) ;
#177 = DIRECTION ( 'NONE',  ( 0.0000000000000000000, 0.0000000000000000000, 1.000000000000000000 ) ) ;
#178 = CARTESIAN_POINT ( 'NONE',  ( 0.0000000000000000000, 0.0000000000000000000, 0.0000000000000000000 ) ) ;
#179 = FACE_OUTER_BOUND ( 'NONE', #16, .T. ) ;
#180 = CIRCLE ( 'NONE', #175, 79.99999999999998579 ) ;
#181 = AXIS2_PLACEMENT_3D ( 'NONE', #277, #65, #176 ) ;
#182 = DIRECTION ( 'NONE',  ( 0.0000000000000000000, 0.0000000000000000000, -1.000000000000000000 ) ) ;
#183 = CARTESIAN_POINT ( 'NONE',  ( 0.0000000000000000000, 0.0000000000000000000, 0.0000000000000000000 ) ) ;
#184 = DIRECTION ( 'NONE',  ( 1.000000000000000000, 0.0000000000000000000, -1.224646799147353207E-16 ) ) ;
#185 = CIRCLE ( 'NONE', #181, 80.00000000000000000 ) ;
#186 = DIRECTION ( 'NONE',  ( 0.0000000000000000000, -1.000000000000000000, -0.0000000000000000000 ) ) ;
#187 =( LENGTH_UNIT ( ) NAMED_UNIT ( * ) SI_UNIT ( .MILLI., .METRE. ) );
#188 = EDGE_CURVE ( 'NONE', #256, #91, #116, .T. ) ;
#189 = CLOSED_SHELL ( 'NONE', ( #208, #123, #172, #27, #233, #291, #198, #217, #304 ) ) ;
#190 = LOCAL_TIME ( 14, 41, 10.00000000000000000, #193 ) ;
#191 = APPROVAL_STATUS ( 'not_yet_approved' ) ;
#192 = APPROVAL_STATUS ( 'not_yet_approved' ) ;
#193 = COORDINATED_UNIVERSAL_TIME_OFFSET ( 3, 0, .AHEAD. ) ;
#194 = ORIENTED_EDGE ( 'NONE', *, *, #282, .T. ) ;
#195 = ORIENTED_EDGE ( 'NONE', *, *, #89, .T. ) ;
#196 = VERTEX_POINT ( 'NONE', #305 ) ;
#197 = APPROVAL ( #192, 'BELÝRTÝLMEMÝÞ' ) ;
#198 = ADVANCED_FACE ( 'NONE', ( #96 ), #202, .T. ) ;
#199 = CARTESIAN_POINT ( 'NONE',  ( 0.0000000000000000000, 98.00000000000000000, -65.40000000000001990 ) ) ;
#200 = CARTESIAN_POINT ( 'NONE',  ( 0.0000000000000000000, 98.00000000000000000, 0.0000000000000000000 ) ) ;
#201 = DIRECTION ( 'NONE',  ( -0.0000000000000000000, -1.000000000000000000, -0.0000000000000000000 ) ) ;
#202 = CYLINDRICAL_SURFACE ( 'NONE', #104, 79.99999999999998579 ) ;
#203 = CC_DESIGN_APPROVAL ( #35, ( #98 ) ) ;
#204 = DIRECTION ( 'NONE',  ( -0.0000000000000000000, -1.000000000000000000, -0.0000000000000000000 ) ) ;
#205 = DIRECTION ( 'NONE',  ( 0.0000000000000000000, 0.0000000000000000000, -1.000000000000000000 ) ) ;
#206 = FACE_BOUND ( 'NONE', #115, .T. ) ;
#207 = DIRECTION ( 'NONE',  ( -0.0000000000000000000, -1.000000000000000000, -0.0000000000000000000 ) ) ;
#208 = ADVANCED_FACE ( 'NONE', ( #264 ), #105, .F. ) ;
#209 = APPLICATION_PROTOCOL_DEFINITION ( 'international standard', 'config_control_design', 1994, #246 ) ;
#210 = PERSON_AND_ORGANIZATION_ROLE ( 'design_owner' ) ;
#211 = DATE_AND_TIME ( #109, #54 ) ;
#212 = SECURITY_CLASSIFICATION_LEVEL ( 'unclassified' ) ;
#213 = ORIENTED_EDGE ( 'NONE', *, *, #19, .F. ) ;
#214 = APPROVAL_DATE_TIME ( #112, #224 ) ;
#215 = ORIENTED_EDGE ( 'NONE', *, *, #89, .F. ) ;
#216 = EDGE_LOOP ( 'NONE', ( #250, #31, #140 ) ) ;
#217 = ADVANCED_FACE ( 'NONE', ( #154 ), #97, .T. ) ;
#218 = EDGE_LOOP ( 'NONE', ( #297, #254, #34 ) ) ;
#219 = CARTESIAN_POINT ( 'NONE',  ( 0.0000000000000000000, 0.0000000000000000000, 0.0000000000000000000 ) ) ;
#220 = LINE ( 'NONE', #301, #150 ) ;
#221 = CARTESIAN_POINT ( 'NONE',  ( 0.0000000000000000000, -116.9414152353410117, 0.0000000000000000000 ) ) ;
#222 = DIRECTION ( 'NONE',  ( 0.0000000000000000000, 0.0000000000000000000, 1.000000000000000000 ) ) ;
#223 = LOCAL_TIME ( 14, 41, 10.00000000000000000, #230 ) ;
#224 = APPROVAL ( #32, 'BELÝRTÝLMEMÝÞ' ) ;
#225 = DIRECTION ( 'NONE',  ( -1.224646799147353207E-16, 0.0000000000000000000, -1.000000000000000000 ) ) ;
#226 = CARTESIAN_POINT ( 'NONE',  ( 8.009190066423690680E-15, 0.0000000000000000000, 65.40000000000001990 ) ) ;
#227 = PERSON_AND_ORGANIZATION_ROLE ( 'creator' ) ;
#228 = PERSON_AND_ORGANIZATION_ROLE ( 'creator' ) ;
#229 = ORIENTED_EDGE ( 'NONE', *, *, #5, .T. ) ;
#230 = COORDINATED_UNIVERSAL_TIME_OFFSET ( 3, 0, .AHEAD. ) ;
#231 = PRODUCT_DEFINITION_SHAPE ( 'NONE', 'NONE',  #98 ) ;
#232 = ORIENTED_EDGE ( 'NONE', *, *, #63, .F. ) ;
#233 = ADVANCED_FACE ( 'NONE', ( #307 ), #73, .F. ) ;
#234 = VERTEX_POINT ( 'NONE', #155 ) ;
#235 = PRODUCT_DEFINITION_FORMATION_WITH_SPECIFIED_SOURCE ( 'HERHANGÝ', '', #293, .NOT_KNOWN. ) ;
#236 = VERTEX_POINT ( 'NONE', #243 ) ;
#237 = DIRECTION ( 'NONE',  ( 0.0000000000000000000, 0.0000000000000000000, -1.000000000000000000 ) ) ;
#238 = LINE ( 'NONE', #21, #151 ) ;
#239 = FACE_OUTER_BOUND ( 'NONE', #216, .T. ) ;
#240 = DIRECTION ( 'NONE',  ( 0.0000000000000000000, 0.0000000000000000000, -1.000000000000000000 ) ) ;
#241 = CC_DESIGN_DATE_AND_TIME_ASSIGNMENT ( #211, #292, ( #98 ) ) ;
#242 = CARTESIAN_POINT ( 'NONE',  ( 0.0000000000000000000, -116.9414152353410117, 0.0000000000000000000 ) ) ;
#243 = CARTESIAN_POINT ( 'NONE',  ( 9.797174393178826052E-15, 108.4459211203608078, 80.00000000000000000 ) ) ;
#244 = DIRECTION ( 'NONE',  ( -0.0000000000000000000, -1.000000000000000000, -0.0000000000000000000 ) ) ;
#245 = DIRECTION ( 'NONE',  ( -0.0000000000000000000, -1.000000000000000000, -0.0000000000000000000 ) ) ;
#246 = APPLICATION_CONTEXT ( 'configuration controlled 3d designs of mechanical parts and assemblies' ) ;
#247 = DIRECTION ( 'NONE',  ( 0.0000000000000000000, 0.0000000000000000000, 1.000000000000000000 ) ) ;
#248 = DATE_AND_TIME ( #164, #15 ) ;
#249 = DATE_AND_TIME ( #165, #268 ) ;
#250 = ORIENTED_EDGE ( 'NONE', *, *, #188, .F. ) ;
#251 = PERSON_AND_ORGANIZATION ( #20, #283 ) ;
#252 = ORIENTED_EDGE ( 'NONE', *, *, #302, .F. ) ;
#253 = EDGE_CURVE ( 'NONE', #166, #11, #88, .T. ) ;
#254 = ORIENTED_EDGE ( 'NONE', *, *, #188, .T. ) ;
#255 = EDGE_CURVE ( 'NONE', #234, #298, #79, .T. ) ;
#256 = VERTEX_POINT ( 'NONE', #286 ) ;
#257 = CC_DESIGN_SECURITY_CLASSIFICATION ( #306, ( #235 ) ) ;
#258 = CARTESIAN_POINT ( 'NONE',  ( 8.009190066423690680E-15, 98.00000000000000000, 65.40000000000001990 ) ) ;
#259 = LINE ( 'NONE', #40, #156 ) ;
#260 = DIRECTION ( 'NONE',  ( -0.0000000000000000000, -1.000000000000000000, -0.0000000000000000000 ) ) ;
#261 = CYLINDRICAL_SURFACE ( 'NONE', #114, 79.99999999999998579 ) ;
#262 = EDGE_CURVE ( 'NONE', #256, #236, #76, .T. ) ;
#263 = APPLICATION_CONTEXT ( 'configuration controlled 3d designs of mechanical parts and assemblies' ) ;
#264 = FACE_OUTER_BOUND ( 'NONE', #299, .T. ) ;
#265 = DIRECTION ( 'NONE',  ( -0.0000000000000000000, -1.000000000000000000, -0.0000000000000000000 ) ) ;
#266 = DIRECTION ( 'NONE',  ( -1.224646799147352961E-16, 0.0000000000000000000, -1.000000000000000000 ) ) ;
#267 = DIRECTION ( 'NONE',  ( 0.0000000000000000000, 0.0000000000000000000, -1.000000000000000000 ) ) ;
#268 = LOCAL_TIME ( 14, 41, 10.00000000000000000, #56 ) ;
#269 = CC_DESIGN_DATE_AND_TIME_ASSIGNMENT ( #59, #169, ( #306 ) ) ;
#270 = APPROVAL_ROLE ( '' ) ;
#271 = ADVANCED_BREP_SHAPE_REPRESENTATION ( 'End Cap SDR11_001 117 0140 0160', ( #46, #9 ), #4 ) ;
#272 = APPROVAL_ROLE ( '' ) ;
#273 = CALENDAR_DATE ( 2019, 16, 12 ) ;
#274 = ORIENTED_EDGE ( 'NONE', *, *, #255, .T. ) ;
#275 = ORIENTED_EDGE ( 'NONE', *, *, #152, .F. ) ;
#276 = VERTEX_POINT ( 'NONE', #50 ) ;
#277 = CARTESIAN_POINT ( 'NONE',  ( 0.0000000000000000000, 108.4459211203608078, 0.0000000000000000000 ) ) ;
#278 = CARTESIAN_POINT ( 'NONE',  ( 0.0000000000000000000, -116.9414152353410117, 2.465438884915568174 ) ) ;
#279 = DIRECTION ( 'NONE',  ( -0.0000000000000000000, -1.000000000000000000, -0.0000000000000000000 ) ) ;
#280 = DIRECTION ( 'NONE',  ( 0.0000000000000000000, 0.0000000000000000000, -1.000000000000000000 ) ) ;
#281 = EDGE_CURVE ( 'NONE', #236, #91, #69, .T. ) ;
#282 = EDGE_CURVE ( 'NONE', #11, #234, #130, .T. ) ;
#283 = ORGANIZATION ( 'BELÝRTÝLMEMÝÞ', 'BELÝRTÝLMEMÝÞ', '' ) ;
#284 = CARTESIAN_POINT ( 'NONE',  ( 0.0000000000000000000, 0.0000000000000000000, 0.0000000000000000000 ) ) ;
#285 = DIRECTION ( 'NONE',  ( 0.0000000000000000000, 0.0000000000000000000, -1.000000000000000000 ) ) ;
#286 = CARTESIAN_POINT ( 'NONE',  ( -3.946495907847236140E-14, 123.0459211203608305, 0.0000000000000000000 ) ) ;
#287 = PLANE ( 'NONE',  #53 ) ;
#288 = DIRECTION ( 'NONE',  ( 0.0000000000000000000, 0.0000000000000000000, -1.000000000000000000 ) ) ;
#289 = CC_DESIGN_PERSON_AND_ORGANIZATION_ASSIGNMENT ( #136, #227, ( #98 ) ) ;
#290 = APPLICATION_PROTOCOL_DEFINITION ( 'international standard', 'config_control_design', 1994, #263 ) ;
#291 = ADVANCED_FACE ( 'NONE', ( #102, #206 ), #287, .T. ) ;
#292 = DATE_TIME_ROLE ( 'creation_date' ) ;
#293 = PRODUCT ( 'End Cap SDR11_001 117 0140 0160', 'End Cap SDR11_001 117 0140 0160', '', ( #134 ) ) ;
#294 = PERSON_AND_ORGANIZATION ( #20, #283 ) ;
#295 = ORIENTED_EDGE ( 'NONE', *, *, #45, .F. ) ;
#296 = SHAPE_DEFINITION_REPRESENTATION ( #231, #271 ) ;
#297 = ORIENTED_EDGE ( 'NONE', *, *, #262, .F. ) ;
#298 = VERTEX_POINT ( 'NONE', #51 ) ;
#299 = EDGE_LOOP ( 'NONE', ( #57, #2, #6 ) ) ;
#300 = DIRECTION ( 'NONE',  ( -0.0000000000000000000, -1.000000000000000000, -0.0000000000000000000 ) ) ;
#301 = CARTESIAN_POINT ( 'NONE',  ( 9.797174393178824474E-15, 0.0000000000000000000, 79.99999999999998579 ) ) ;
#302 = EDGE_CURVE ( 'NONE', #36, #11, #49, .T. ) ;
#303 = DIRECTION ( 'NONE',  ( -0.0000000000000000000, -1.000000000000000000, -0.0000000000000000000 ) ) ;
#304 = ADVANCED_FACE ( 'NONE', ( #131 ), #43, .F. ) ;
#305 = CARTESIAN_POINT ( 'NONE',  ( 9.797174393178824474E-15, 0.0000000000000000000, 79.99999999999998579 ) ) ;
#306 = SECURITY_CLASSIFICATION ( '', '', #212 ) ;
#307 = FACE_OUTER_BOUND ( 'NONE', #171, .T. ) ;
ENDSEC;
END-ISO-10303-21;
